Bruce Cockburn - King Kong Goes to Tallahassee

                                            Tuning: drop D (DADGBE), Tempo: 75 bpm
                                            Guitar tab by Oddnejm

                                            "One, two ..."
                                            |--2-/-5------5---5--------5-----|--5------5----------------------|
                                            |--3-/-7--7------------7---------|--7------7----------------------|
                                            |--------------------------------|--------------------------------|
                                            |--------------------------------|--------------------------------|
                                            |--------------------------------|--------------------------------|
                                            |--0--------------0--------------|--0--------------0----------0---|


                                            |--1-/-2-------2--1-------0------|--------------------------------|
                                            |--2-/-3-------3--2-------1------|--------------------------------|
                                            |-----------2-------------0------|--------------------------------|
                                            |--------------------------------|--------------------------------|
                                            |--------------------------------|--------------------------------|
                                            |--0--------------0--------------|--0--------------0-------4--/---|



                                            |-----------------5---------5----|---------5----------------------|
                                            |-----------------3---------3----|---------3----------------------|
                                            |------------3-------------------|--3--------------3--------------|
                                            |--------------------------------|--------------------------------|
                                            |--------------------------------|--------------------------------|
                                            |--5-----------------------------|--5--------------5-------5------|


                                            |--3------5-------5--------------|--5--------------5/6\5p3--------|
                                            |--3------3-------3------3-------|--3-----------------------------|
                                            |--3--------------3------3-------|--3---------3-------------------|
                                            |--------------------------------|--------------------------------|
                                            |--------------------------------|--------------------------------|
                                            |--5--------------5--------------|--5-----------------------------|


                                            |---------5----------------------|--------------------------------|
                                            |--5-/-7-----7p5-----------------|--------------------------------|
                                            |--------------------------------|--------------------------------|
                                            |-----------------7~~------------|-----------------x--------------|
                                            |--------------------------------|-----------------x--------0--1--|
                                            |--0--------------0--------------|--0--------------x--------------|


                                            |-----------------0h1p0----------|-------------5---3---1-/-2------|
                                            |----------3----------------3----|---------------------------3~~--|
                                            |--------------------------------|--1-/-2-------------------------|
                                            |--------------------------------|--------------------------------|
                                            |--2--------------2--------------|--0--------------0--------------|
                                            |--------------------------------|--------------------------------|


                                            |--------------------------------|--------------------------------|
                                            |-----------------2-------2------|--3-------3------3-------3------|
                                            |-----------------3-------3------|--1-------1------0-------0------|
                                            |----------------------4---------|------3--------------2----------|
                                            |--------------------------------|--------------------------------|
                                            |--0--------------0--------------|--0--------------0--------------|


                                            |--------------------------------|--------------------------------|
                                            |-----------3--------------------|-------------------------3------|
                                            |-----------------2-------2------|-------------------2h4----------|
                                            |--2--/--4----4-----------2------|------------------0-------------|
                                            |--------------------------------|--0--------------0--------------|
                                            |--0-----------------------------|--------------------------------|

                                            (0:27 - 0:53)

                                            |--2-/-5---5---5--5-/-7----5-----|--------------------------------|
                                            |--3-/-7---7---7--7-/-8----7-----|--------------------------------|
                                            |--------------------------------|--------------------------------|
                                            |--------------------------------|--------------------------------|
                                            |--------------------------------|--------------------------------|
                                            |--0--------------0--------------|--0--------------0----------0---|


                                            |--1-/-2-------3--2p0-----0------|--------------------------------|
                                            |--2-/-3-------3--3-------1~-----|-----------------1---/---3------|
                                            |----------2------2-------0------|--------------------------------|
                                            |--------------------------------|--------------------------------|
                                            |--------------------------------|--------------------------------|
                                            |--0--------------0--------------|--0--------------------------4--|


                                            |-----------------5--------------|--5-------5---------------------|
                                            |-----------------3--------------|--3-------3------3--------------|
                                            |----------3--------------3------|-----------------3--------------|
                                            |--------------------------------|--------------------------------|
                                            |--------------------------------|--------------------------------|
                                            |--5-----------------------------|--5-----------------------------|


                                            |----------5------5--------------|--5--------------5/6\5p3--------|
                                            |----------3------3--------3-----|--3-----------------------------|
                                            |-----------------3----3---------|---------3----------------------|
                                            |--------------------------------|--------------------------------|
                                            |--------------------------------|--------------------------------|
                                            |--5-----------------------------|--5-----------------------------|


                                            |---------5----------------------|--------------------------------|
                                            |--5-/-7-----7p5-----------------|--------------------------------|
                                            |--------------------------------|--------------------------------|
                                            |-----------------7~~------------|-----------------x--------------|
                                            |--------------------------------|-----------------x--------0--1--|
                                            |--0--------------0-------0------|--0--------------x--------------|


                                            |-----------------0h1p0----------|-----------5-----3---1-/-2------|
                                            |----------3----------------3----|---------------------------3~~--|
                                            |--------------------------------|--1-/-2-------------------------|
                                            |--------------------------------|--------------------------------|
                                            |--2--------------2--------------|--0--------------0--------------|
                                            |--------------------------------|--------------------------------|


                                            |--------------------------------|--------------------------------|
                                            |-----------------2-------2------|--3-------3------3--------3-----|
                                            |-----------------3-------3------|--1-------1------0--------1-----|
                                            |----------------------4---------|-----------------2--------------|
                                            |--------------------------------|--------------------------------|
                                            |--0--------------0--------------|--0--------------0--------------|


                                            |-----------------0---------0----|--1---------1----2---------2----|
                                            |--2---------2-------------------|--------------------------------|
                                            |--3---------3----0---------0----|--1---------1----2---------2----|
                                            |--4-----------------------------|--------------------------------|
                                            |--------------------------------|--------------------------------|
                                            |--0-----------------------------|--------------------------------|

                                            (0:53 - 1:18)

                                            |---------7----------------------|--7------7----------------------|
                                            |---------6-------6--------------|--6------6----------------------|
                                            |-----------------7--------------|--7------7----------------------|
                                            |--------------------------------|--------------------------------|
                                            |--------------------------------|--------------------------------|
                                            |--5----------------------5------|-----------------5-------5------|


                                            |--7----------7---5----------5---|--3---------3-------------------|
                                            |--6----------6---5----------5---|--3---------3-------------------|
                                            |---------7-------5------5-------|--4---------4-------------------|
                                            |--------------------------------|--------------------------------|
                                            |--------------------------------|-----------------x--------------|
                                            |--5--------------5--------------|--5--------------x--------0-----|


                                            |------------6----6---------6----|--6--------------3----2h3p2--0--|
                                            |------------5----5---------5----|--5--------------3----2---------|
                                            |-------6------------------------|-----------------3----2---------|
                                            |--------------------------------|--------------------------------|
                                            |--------------------------------|----------------------0---------|
                                            |--4--------------4---------4----|--4--------------4--------------|


                                            |-----------------2-------2------|-----------------2--------------|
                                            |--3--------------3-------3------|-----------------3--------------|
                                            |--4--------------4--------------|--4--------------4--------------|
                                            |----------4------4--------------|---------4-------4--------------|
                                            |--2--------------2--------------|-----------------2--------------|
                                            |--------------------------------|--------------------------0--1--|


                                            |--------------------------------|---------0----------------------|
                                            |--------------------------------|---------0---------------0------|
                                            |-----------0h1---0h1------0h1---|--0h1----1---------------1------|
                                            |-----------2-----2--------2-----|--2------------------2----------|
                                            |-----------2-----2--------2-----|--2-----------------------------|
                                            |--2--------2-----2--------2-----|--2--------------2--------------|
                                            (thumb)

                                            |--------------------------------|--0-----------------------------|
                                            |--2-----2--------0--------------|--0-----0-------------------0---|
                                            |--2-----2--------0h1p0h1p0--1---|--------1--------1----------1---|
                                            |-----2-----------0----------2---|------------------------2-------|
                                            |----------------------------2---|--------------------------------|
                                            |--------------------------------|-----------------2--------------|


                                            |--------------------------------|--------------------------------|
                                            |--2--------------2--------2-----|--3--------3-----4---------4----|
                                            |--2-----------------------------|--------------------------------|
                                            |--2--------------2--------2-----|--3--------3-----4---------4----|
                                            |--0-------------------0---------|--------------------------------|
                                            |--------------------------------|--------------------------------|


                                            |------------------------5--7----|--------------------------------|
                                            |--5--------------5-/-7----------|--5b(6)p3-----------------------|
                                            |--------------------------------|-----------5-----2----0---------|
                                            |--5-----------------------------|---------------------------4----|
                                            |--------------------------------|--------------------------------|
                                            |--------------------------------|--------------------------------|

                                            (1:18 - 1:44)

                                            |--------------------------------|--10------10-----7--------------|
                                            |---------------------------7h10-|--10------10-----7----------7---|
                                            |--------------------------7-----|----------------------------7---|
                                            |-------------------------7------|--------------------------------|
                                            |--3/5~-----------x------9-------|--------------------------------|
                                            |--0--------------x--------------|--------------------------------|


                                            |--------------------------------|--0-----0-----------------------|
                                            |--10-------10----7---------5----|--4-----3--------------0--------|
                                            |--7--------7-----7---------5----|--4-----3--------------0--------|
                                            |--------------------------------|--------------------------------|
                                            |--------------------------------|--------------------------------|
                                            |--0-----------------------------|--0--------------0--------------|


                                            |--------------------------------|-----------------3--------------|
                                            |--------------------------3-----|-------3---------3---3----------|
                                            |---------0-----------0----------|--4--------4-------------4------|
                                            |--------------------------------|--5-----------------------------|
                                            |--------------------------------|--------------------------------|
                                            |--5--------------5--------------|--------------------------------|


                                            |--3---------5----5h6p5p3--------|--------------------------------|
                                            |--3---------------------5h6p5p3-|--------------------------------|
                                            |--3-----------------------------|--5h6p5p3-----------------------|
                                            |--5-----------------------------|---------5h6p5p3-5p3-----3---/--|
                                            |--------------------------------|----------------------5---------|
                                            |--------------------------------|--------------------------------|


                                            |--------------------------------|--------------------------------|
                                            |--------------------------------|----------7h10p7----------------|
                                            |--------------------------------|---------7-------7--------------|
                                            |--4-----------------------------|--------7--------------7--------|
                                            |------5-------------------------|-------7------------------------|
                                            |----------7------7-------7------|--7-----------------------------|


                                            |-/5--------5-----4----------3---|--------/-5---------------------|
                                            |-/5--------5-----4----------3---|-----------------5--/--7--------|
                                            |-/6--------6-----5----------4---|---------------------------7~---|
                                            |--------------------------------|--------------------------------|
                                            |--------------------------------|--x-----------------------------|
                                            |--------------------------------|--x-----------------------------|


                                            |-------10-------10--------10----|--10--------10---10-------10----|
                                            |--------7--------7---------7----|--7---------7----7--------7-----|
                                            |--------7-------------7---------|--------7--------------7--------|
                                            |----------------10--------------|--9--------------8--------------|
                                            |--------------------------------|--------------------------------|
                                            |--0-----------------------------|--------------------------------|


                                            |--10-------------5-------5------|-----------5-----5--/--10-------|
                                            |--7-----------------------------|-----------------------10-------|
                                            |--7------4-/--6------6----------|-----------6-----6--/--11-------|
                                            |--7-----------------------------|--------------------------------|
                                            |---------0----------------------|--0--------------0--------------|
                                            |--------------------------------|--------------------------------|

                                            (1:44 - 2:09)

                                            |--10-\---------/-14-------14----|--14----14-------14-----14------|
                                            |--10-\---------/-13-------13----|--13----13-------13-----13------|
                                            |--11-\---------/-14---14--------|--14----14-------14-----14------|
                                            |--------------------------------|--------------------------------|
                                            |--------------------------------|--------------------------------|
                                            |--0-------0------0--------------|--0-----------------------------|


                                            |--13------13-----12------12-----|--10-/-9--/-8-----------7-------|
                                            |--12------12-----11------11-----|--10-/-9--/-8-----------7-------|
                                            |------13-------------12---------|--11-/-10-/-9-------------------|
                                            |--------------------------------|--------------------------------|
                                            |--------------------------------|--------------------------------|
                                            |--0--------------0--------------|-----------------0--------------|


                                            |---------7-------7--------------|--7-------7------5-------5------|
                                            |---------6-------6--------------|--6-------6------5-------5------|
                                            |---------7-------7--------7-----|---------------------5----------|
                                            |--------------------------------|--------------------------------|
                                            |--------------------------------|--------------------------------|
                                            |--5--------------5----5---------|--5--------------5--------------|


                                            |--3--------------3--------------|--3-----------5--5h6p5p3--------|
                                            |-------------------------3------|--------3-----------------6--3--|
                                            |---------3-----------3----------|-----3--------------------------|
                                            |--------------------------------|--------------------------------|
                                            |--------------------------------|--------------------------------|
                                            |--5--------------5--------------|--5-----------------------------|


                                            |--------------------------------|--------------------------------|
                                            |--5b(6)p3---5----3--------------|----------3---------------------|
                                            |----------5---5-----------------|------2-------------------------|
                                            |---------------------2---0------|--4-----------------------------|
                                            |--------------------------------|---------------------------0----|
                                            |--0-----------------------------|--0--------------0--------------|


                                            |----------5------5--------------|--5--------5-----3--1--/--2-----|
                                            |--2--------------2--------------|--2--------2-----------------3--|
                                            |--2----------------------2------|--------------------------------|
                                            |--2-----------------------------|--------------------------------|
                                            |--0--------------0---0----------|--0-----------------------------|
                                            |--------------------------------|--------------------------------|


                                            |--------------------------------|--------------------------------|
                                            |-----------------3---------3----|--3---------3----3----------3---|
                                            |-----------------2---------2----|--1---------1----1----------1---|
                                            |----------4------4---------4----|--3---------3----3----------3---|
                                            |--------------------------------|--------------------------------|
                                            |--0-----------------------------|--0-----------------------------|


                                            |------------------------5--7----|--------------------------------|
                                            |--3-----3--------5-/-7----------|--5------/-5--------------------|
                                            |--2-----2-----------------------|------7----------7--------------|
                                            |--4-----4-----------------------|---------------------7---5------|
                                            |--------------------------------|--------------------------------|
                                            |--0-----------------------------|--------------------------------|

                                            (2:09 - 2:34)

                                            |-----------------7--------------|--7-----7-----------------------|
                                            |-----------------6--------------|--6-----6-----------------------|
                                            |-----------7--------------7-----|--------------------------------|
                                            |--------------------------------|--------------------------------|
                                            |--------------------------------|-----------------x--------------|
                                            |--5------------------5----------|-----------------x---------x----|


                                            |--7-------7------5-------5------|--3--------3---------3----------|
                                            |--6-------6------5-------5------|--3--------3--------------------|
                                            |------7--------------5----------|--3h4------3h4-----------4------|
                                            |--------------------------------|--------------------------------|
                                            |--------------------------------|-----------------x--------------|
                                            |--5--------------5--------------|--5--------5-----x--------------|


                                            |----------6------6-------6------|--6--------------3----2h3p2--0--|
                                            |----------5------5-------5------|--5--------------3----2---------|
                                            |------6--------------6----------|-----------------3----2---------|
                                            |--------------------------------|--------------------------------|
                                            |--------------------------------|----------------------0---------|
                                            |--4--------------4--------------|--4--------------4--------------|


                                            |-------------------------2------|-----------------2--------------|
                                            |--3-------3--------------3------|-----------------3--------------|
                                            |--4-------4---------------------|---------4----------------------|
                                            |-----------------4--------------|--------------------------------|
                                            |--2-----------------------------|--2-----------------------------|
                                            |--------------------------------|--------------------------1-----|


                                            |-----------------0--------------|-------------------------0------|
                                            |-----------------0-------2------|-----------------0-------0------|
                                            |--0h1---0h1------1---1---2------|--0h1p0h1p0h1----1-------1------|
                                            |--2-----2------------2---2------|--2-----------2-----------------|
                                            |--2-----2-----------------------|--2-----------2-----------------|
                                            |--2-----2-----------------------|--2-----------2-------2---------|
                                            (thumb)

                                            |--------------------------------|-----------------0--------------|
                                            |--2h3p2-----2----0--------------|-----------------0---0----------|
                                            |--2---------2----0--------------|---------0----------------0-----|
                                            |---------------------2----------|--0-----------------------------|
                                            |--------0-----------------0-----|--2-----------------------------|
                                            |--------------------------------|--------------------------------|


                                            |--------------------------------|--------------------------------|
                                            |--2--------2--/--3--------3--/--|--4--------4--/--5--------5--/--|
                                            |--------0--------------0--------|--------0--------------0--------|
                                            |-----2--------------3-----------|-----4--------------5-----------|
                                            |--0--------0--/--0--------0-----|--0--------0--/--0--------0-----|
                                            |--------------------------------|--------------------------------|


                                            |--------------------------------|--------------------------------|
                                            |--7--------7--/--8--------8--/--|--9--------9--/--10----10--12---|
                                            |--------0--------------0--------|--------0-----------------------|
                                            |-----7--------------9-----------|-----10-------------11----------|
                                            |--0--------0--/--8--------0-----|--0--------0--/--0--------------|
                                            |--------------------------------|--------------------------------|

                                            (2:34 - 3:05)

                                            |--10----------/--10---10---10---|--10-----5-----------5----------|
                                            |--------------/--10---10---10---|--10-----7-----------7----------|
                                            |--------------/--11---11---11---|--11-----7-----------7----------|
                                            |--------------------------------|--------------------------------|
                                            |--------------------------------|--------------------------------|
                                            |--0-----------------------------|--0--------------0--------------|


                                            |-/7-----------------------------|--------------------------------|
                                            |-/7-----7--------6----------5---|-------5------------------------|
                                            |-/7-----7--------6----------5---|-------5------------------------|
                                            |--------7--------6----------5---|-----------------5-\------------|
                                            |--------------------------------|--------------------------------|
                                            |--------------------------------|--0-----------------------0-----|


                                            |-----------------5----------5---|--5--------------5--------------|
                                            |---------3-------3----------3---|--3--------------3--------------|
                                            |--------------------------------|---------3----------------------|
                                            |--------------------------------|--------------------------------|
                                            |--------------------------------|--------------------------------|
                                            |-/5--------------5--------------|--5--------------5--------5-----|


                                            |----------5------5-------5------|--5--------------5h6p5---3------|
                                            |----------3------3-------3------|--3-----------------------------|
                                            |------3--------------3----------|--------3-----------------------|
                                            |--------------------------------|--------------------------------|
                                            |--------------------------------|--------------------------------|
                                            |--5--------------5--------------|--5-----------------------------|


                                            |---------5----------------------|--------------------------------|
                                            |--5-/-7-----7p5-----------------|--------------------------------|
                                            |--------------------------------|--------------------------------|
                                            |-----------------7--------------|--------------------------------|
                                            |--------------------------------|-----------------x--------1--2--|
                                            |-------------------------0------|--0-------0------x--------------|


                                            |-----------------0h1p0----------|---------5---3---1--/--2--------|
                                            |----------3----------------3----|-------------------------3~~----|
                                            |--------------------------------|--1-/-2-------------------------|
                                            |--------------------------------|--------------------------------|
                                            |--2--------------2--------------|--0--------------0--------------|
                                            |--------------------------------|--------------------------------|


                                            |-----------------0-----------1--|--2-----------------------------|
                                            |------------3-------------------|-----------------0------3-------|
                                            |------------2----0-----------1--|--2-----------------------------|
                                            |------------4-------------------|-----------------0------4-------|
                                            |--------------------------------|---------0----------------------|
                                            |--0-----------------------------|--------------------------------|


                                            |--------------------------------|--------------------------------|
                                            |-----------------0--------------|--1~----------------------------|
                                            |---------2-------2---------2----|--2~----------------------------|
                                            |-----------------0--------------|--4~----------------------------|
                                            |--0-----------------------------|--0-----------------------------|
                                            |--------------------------------|--0-----------------------------|
                                            It's not exactly how Bruce plays it, but I hope you get the general idea. Keep improvising and enjoy!

                                            /Odd


                                            Maybe you'll also like: